Exercices techniques N°3

Postez ici vos plans, vos cours, vos leçons.
Post Reply
noals
VIP
VIP
Posts: 158
Joined: Tue Jan 08, 2008 11:00 pm

Sun Jul 13, 2008 3:42 am

salut,


j'suis tomb? sur un vid?o de satriani qui donne quelques trucs sympa
http://www.youtube.com/watch?v=JNDyI5b3Fh8&feature=related
y'en a un bien pour muscl? les doigts donc j'propose une l?g?re variante toujours pour muscl? les doigts.


E|--------------------------------------------------------
B|--------------------------------------------------------
G|--------------------------------------------------------
D|--------------------------------------1--3--5--1--3--5--
A|--------------------1--3--5--1--3--5--------------------
E|--1--3--5--1--3--5--------------------------------------


E|--------------------------------------1--3--5--1--3--5--
B|--------------------1--3--5--1--3--5--------------------
G|--1--3--5--1--3--5--------------------------------------
D|--------------------------------------------------------
A|--------------------------------------------------------
E|--------------------------------------------------------


--> ? chaque fois c'est 1 3 5 donc le truc que j'propose c'est de faire 1 3 5 deux fois sur chaque cordes avec donc le majeur qui sera utilis? la premi?re fois et l'annulaire pour la seconde fois.
--> vous faite ce 1 3 5 1 3 5 de la corde Mi grave ? MI aigu et inversement, et ensuite vous recommencez mais en faisant 5 3 1 5 3 1, etc..


j'propose aussi de faire le tous une fois sans vous servir de la main droite (en tapping) pour vraiment bien se faire mal ? la main et appuyer asser fort pour que ?a sonne et ensuite rebelote mais avec aller-retour m?diator.

quand vous avez fait ?a et que vous avez bien mal a la main
bah il reste plus qu'? faire de 2 4 6 2 4 6, etc... ^^

apres, comme d'hab, vous pouvez personalis? l'exo selon vos besoins, saut de cordes, le faire en diagonale sur le manche, etc...



'fin bref, j'vais peut etre arreter de donn? des exercices parce que faut que j'les fasse aussi et j'vais passer pas mal de temps sur celui l? je crois. ^^

d'ailleur, apres avoir ?crit tous ?a, j'pense que le mieu est encore de faire :
E|--1--3--4--5--1--2--3--5--


bref... y'a de quoi faire.

Joalland
VIP
VIP
Posts: 481
Joined: Sat Jun 23, 2007 10:00 pm

Sun Jul 13, 2008 8:40 am

Elle est nul ta vid?o. =pC'est comme ?a qu'on doit apprendre ? apprendre ? faire de la gratte:http://fr.youtube.com/watch?v=dSb5lG1wZKc&feature=related
noals
VIP
VIP
Posts: 158
Joined: Tue Jan 08, 2008 11:00 pm

Sun Jul 13, 2008 8:58 am

ouai mais c'est juste le solo du d?but qui m'interesse vraiment lolpourquoi c'est pas ?a qu'il explique... ^^j'ete tomb? sur celle la sinon :http://www.youtube.com/watch?v=hbyzZz-gfwo&feature=related
Jim
VIP
VIP
Posts: 1462
Joined: Wed Oct 31, 2007 11:00 pm

Sun Jul 13, 2008 10:53 am

J'adooOOoore le sac ? slip!!! ?a a l'air fa?ile pour lui.
liax
VIP
VIP
Posts: 1453
Joined: Wed Jan 09, 2008 11:00 pm

Tue Jul 15, 2008 3:27 pm

Si vous voulez travailler ce type de phras?, alors vous pouvez bosser la partie solo de Surfin With the Alien, le maitre le fait sans main droite lol
Post Reply